Neuer Thread ...


ErstellerThema » Beitrag als Abo bestellenThread schließen Thread verschieben Festpinnen Druckansicht Thread löschen

Rock*Star 
neophyte writer
...

...

Status: Offline
Registriert seit: 21.11.2002
Beiträge: 88
Nachricht senden
...   Erstellt am 26.11.2002 - 14:51Zum Seitenanfang Beitrag zitieren Beitrag melden Beitrag verändern Beitrag löschen


Bin ja riesiger muse...also tu ich dann mal hier die muse tabs rein

muse - new born :

MUSE - New Born

6. Saite als D Tunen

Part 1 :
e-|------7-------7---|------7-------8---|
B-|----8---8---8---8-|----7---7---7---7-|
G-|--9-------9-------|--8-------8-------| X2
D-|------------------|------------------|
A-|------------------|------------------|
D-|------------------|------------------|


e-|------7-------7---|------8-------8---|------7-------7---|------7-------7---|
B-|----8---8---8---8-|----8---8---8---8-|----8---8---8---8-|----7---7---7---7-|
G-|--9-------9-------|--9-------9-------|--7-------7-------|--8-------8-------|
D-|------------------|------------------|------------------|------------------|
A-|------------------|------------------|------------------|------------------|
D-|------------------|------------------|------------------|------------------|


Part 2:
e-|------7-------7---|------7-------8---|
B-|----8---8---8---8-|----7---7---7---7-|
G-|--9-------9-------|--8-------8-------| X2
D-|------------------|------------------|
A-|------------------|------------------|
D-|------------------|------------------|


e-|------7-------7---|------8-------8---|------7-------7---|--7---------------|
B-|----8---8---8---8-|----8---8---8---8-|----8---8---8---8-|--7---------------|
G-|--9-------9-------|--9-------9-------|--7-------7-------|--8---------------|
D-|------------------|------------------|------------------|------------------|
A-|------------------|------------------|------------------|------------------|
D-|------------------|------------------|------------------|------------------|


Part 3:
e-|------------------|--------------------|-------------------|-----------------|
B-|------------------|--------------------|-------------------|-----------------|
G-|------------------|--------------------|-------------------|-----------------|
D-|------------------|--------------------|-------------------|-----------------|
A-|------------------|--------------------|-------------------|---------2-2-2-2-|
D-|--2-2-2-2-5-2-5-6-|-7-7-7-7-10-7-10-11-|-12-0-0-12-0-0-3-4-|-5-5-5-5---------|


e-|--0---------------|--------------------|-------------------|-----------------|
B-|--1---------------|--------------------|-------------------|-4---------------|
G-|--0---------------|--3-----------------|--4----------------|-4---------------|
D-|--2---------------|--3-----------------|--4----------------|-4---------------|
A-|--3---------------|--1-----------------|--2----------------|-2---------------|
D-|------------------|--------------------|-------------------|-----------------|


Part 4:
Rhythm: 1 e + a 2 e + a 3 e + a 4 e + a
Play on these beats for each chord: ^ ^ ^ ^ ^ ^ ^ ^ ^ ^ ^ ^ (The
strumming is very fast)
e-|--7------|--7------|--7------|--7------|--7------|--8------|--7------|--7------|
B-|--8------|--7------|--8------|--7------|--8------|--8------|--8------|--7------|
G-|--9------|--8------|--9------|--8------|--9------|--9------|--7------|--8------|
D-|--9------|--9------|--9------|--9------|--9------|--10-----|--9------|--9------|


Part 5:
e-|--0------|---------|---------|---------|---------|---------|---------|---------|
B-|--0------|--1------|--3------|--0------|--1------|---------|---------|--4------|
G-|--0------|--2------|--2------|--0------|--0------|--3------|--4------|--4------|
D-|--2------|--2------|--0------|--5------|--2------|--3------|--4------|--4------|
A-|--2------|--0------|---------|--5------|--3------|--1------|--2------|--2------|
D-|--2------|---------|---------|--5------|---------|---------|---------|---------|

Solo:

!VERY FAST PICKING!
This part is pretty much continuous fast alternate picking but I've only
shown where the notes change so there are some longer notes. Besides that
I think this is pretty accurate.

e-|--------------------------|--------------------------|
B-|--12----------------------|--12----------------------| X2
G-|--------12-----9----12--9-|--------11-----8----11--8-|


e-|--------------------------|--------------------------|
B-|--12----------------------|--13----------------------|
G-|--------12-----9----------|--------12-----9----------|
D-|--------------------10----|--------------------10----|


e-|--------------------------|--------------------------|
B-|--12----------------------|--------------12----------|
G-|--------12----------------|---8----10----------------|
D-|--------------12----------|--------------------------|


e-|--------------------------|--------------------------|
B-|--12----------------------|--12----------------------|
G-|--------12-----9----12--9-|--------11-----8----11--8-|


e-|--------------------------|--------------------------|
B-|--12----------------------|--12----------------------|
G-|--------12-----9----12----|--------11-----8----11----|


e-|--------------------------|--------------------------|
B-|--12----------------12----|--13----------------13----|
G-|--------12-----9----------|--------11-----8----------|


e-|--------------------------|--------------------------|
B-|--12----------------------|--------------------------|
G-|--------12----------------|---8----------------------|
D-|--------------12----------|--------------------------|

STRUCTURE
Intro : Part 1 X2
Verse 1 : Part 1 X3, Part 2
Bridge : Part 3 X3
Verse 2 : Part 4 X4
Chorus : Part 5 X2
Solo
Verse 3 : Part 4 X4
Chorus : Part 5 X2
Outro : Part 3 X3

Eines meiner Lieblingslieder





Signatur
An dem Tag an dem du denkst du kannst nicht mehr besser werden, fängst du an nur noch die selbe Musik zu spielen...

rine 
Herrscher + Admin
..............................



Status: Offline
Registriert seit: 08.09.2002
Beiträge: 304
Nachricht senden
...   Erstellt am 26.11.2002 - 17:12Zum Seitenanfang Beitrag zitieren Beitrag melden Beitrag verändern Beitrag löschen


ja, jetzt ist schon besser
danke, ich werde es zu den tabs hinzufügen...

ps: das muse tab was du vorher bei "kompliment" hineingeschrieben hast werde ich löschen...steht ja hier schon drin





Signatur
ernst sein - alle müssen ernst sein...

rine 
Herrscher + Admin
..............................



Status: Offline
Registriert seit: 08.09.2002
Beiträge: 304
Nachricht senden
...   Erstellt am 10.12.2002 - 15:30Zum Seitenanfang Beitrag zitieren Beitrag melden Beitrag verändern Beitrag löschen


ach ja, hast du die selber getabbt? oder sind das tabs von wem anderen...? (wegen der tab-sammlung)





Signatur
ernst sein - alle müssen ernst sein...

Rock*Star 
neophyte writer
...

...

Status: Offline
Registriert seit: 21.11.2002
Beiträge: 88
Nachricht senden
...   Erstellt am 14.12.2002 - 01:21Zum Seitenanfang Beitrag zitieren Beitrag melden Beitrag verändern Beitrag löschen


nein die hab ich von http://www.musclemuse.com

dort
sind sämtliche muse tabs zu finden





Signatur
An dem Tag an dem du denkst du kannst nicht mehr besser werden, fängst du an nur noch die selbe Musik zu spielen...

rine 
Herrscher + Admin
..............................



Status: Offline
Registriert seit: 08.09.2002
Beiträge: 304
Nachricht senden
...   Erstellt am 14.12.2002 - 15:46Zum Seitenanfang Beitrag zitieren Beitrag melden Beitrag verändern Beitrag löschen


oh danke, das werd ich dann auf die Seite geben





Signatur
ernst sein - alle müssen ernst sein...


Ähnliche Themen:
Thema Erstellt von Antworten Forumname
Muse iLoVeVaMpiReS 51 bellacullen
Muse Alexej 0 aleku
Muse AngieFire 1 angelfire_34
MUSE !! RoseCullen 10 rosecullen
Muse Leandra 73 d_rocs
Neuer Thread ...

Geburtstagsliste:
Heute hat kein User Geburtstag!
----------------------------------




Impressum

Dieses Forum ist ein kostenloser Service von razyboard.com
Wollen Sie auch ein kostenloses Forum in weniger als 2 Minuten? Dann klicken Sie hier!



Verwandte Suchbegriffe:
muse tabs
blank